ISO-10303-21;
HEADER;
/* Generated by software containing ST-Developer
 * from STEP Tools, Inc. (www.steptools.com) 
 */

FILE_DESCRIPTION(
/* description */ (''),
/* implementation_level */ '2;1');

FILE_NAME(
/* name */ 
'\\\\vmware-host\\Shared Folders\\Projects\\LargeFormatPrinter\\Produc
tionPackage\\CAD\\STEPs\\VeeBlock.stp',
/* time_stamp */ '2018-09-22T21:06:49-04:00',
/* author */ ('Justine Haupt'),
/* organization */ (''),
/* preprocessor_version */ 'ST-DEVELOPER v15.6',
/* originating_system */ 'Autodesk Inventor 2015',
/* authorisation */ '');

FILE_SCHEMA (('AUTOMOTIVE_DESIGN { 1 0 10303 214 3 1 1 }'));
ENDSEC;

DATA;
#10=MECHANICAL_DESIGN_GEOMETRIC_PRESENTATION_REPRESENTATION('',(#13),#517);
#11=SHAPE_REPRESENTATION_RELATIONSHIP('SRR','None',#526,#12);
#12=ADVANCED_BREP_SHAPE_REPRESENTATION($,(#14),#516);
#13=STYLED_ITEM('',(#535),#14);
#14=MANIFOLD_SOLID_BREP('Solid2',#317);
#15=CYLINDRICAL_SURFACE('',#329,5.5);
#16=CYLINDRICAL_SURFACE('',#330,2.75);
#17=CYLINDRICAL_SURFACE('',#335,5.5);
#18=CYLINDRICAL_SURFACE('',#336,2.75);
#19=FACE_BOUND('',#57,.T.);
#20=FACE_BOUND('',#61,.T.);
#21=FACE_BOUND('',#63,.T.);
#22=FACE_BOUND('',#65,.T.);
#23=FACE_BOUND('',#67,.T.);
#24=FACE_BOUND('',#69,.T.);
#25=FACE_BOUND('',#71,.T.);
#26=FACE_BOUND('',#73,.T.);
#27=FACE_BOUND('',#81,.T.);
#28=FACE_BOUND('',#82,.T.);
#29=CIRCLE('',#321,5.5);
#30=CIRCLE('',#325,5.5);
#31=CIRCLE('',#327,5.5);
#32=CIRCLE('',#328,2.75);
#33=CIRCLE('',#331,2.75);
#34=CIRCLE('',#333,5.5);
#35=CIRCLE('',#334,2.75);
#36=CIRCLE('',#337,2.75);
#37=FACE_OUTER_BOUND('',#55,.T.);
#38=FACE_OUTER_BOUND('',#56,.T.);
#39=FACE_OUTER_BOUND('',#58,.T.);
#40=FACE_OUTER_BOUND('',#59,.T.);
#41=FACE_OUTER_BOUND('',#60,.T.);
#42=FACE_OUTER_BOUND('',#62,.T.);
#43=FACE_OUTER_BOUND('',#64,.T.);
#44=FACE_OUTER_BOUND('',#66,.T.);
#45=FACE_OUTER_BOUND('',#68,.T.);
#46=FACE_OUTER_BOUND('',#70,.T.);
#47=FACE_OUTER_BOUND('',#72,.T.);
#48=FACE_OUTER_BOUND('',#74,.T.);
#49=FACE_OUTER_BOUND('',#75,.T.);
#50=FACE_OUTER_BOUND('',#76,.T.);
#51=FACE_OUTER_BOUND('',#77,.T.);
#52=FACE_OUTER_BOUND('',#78,.T.);
#53=FACE_OUTER_BOUND('',#79,.T.);
#54=FACE_OUTER_BOUND('',#80,.T.);
#55=EDGE_LOOP('',(#209,#210,#211,#212));
#56=EDGE_LOOP('',(#213,#214,#215,#216,#217));
#57=EDGE_LOOP('',(#218));
#58=EDGE_LOOP('',(#219,#220,#221,#222,#223,#224,#225,#226));
#59=EDGE_LOOP('',(#227,#228,#229,#230));
#60=EDGE_LOOP('',(#231,#232,#233,#234,#235));
#61=EDGE_LOOP('',(#236));
#62=EDGE_LOOP('',(#237));
#63=EDGE_LOOP('',(#238));
#64=EDGE_LOOP('',(#239));
#65=EDGE_LOOP('',(#240));
#66=EDGE_LOOP('',(#241));
#67=EDGE_LOOP('',(#242));
#68=EDGE_LOOP('',(#243));
#69=EDGE_LOOP('',(#244));
#70=EDGE_LOOP('',(#245));
#71=EDGE_LOOP('',(#246));
#72=EDGE_LOOP('',(#247));
#73=EDGE_LOOP('',(#248));
#74=EDGE_LOOP('',(#249,#250,#251,#252));
#75=EDGE_LOOP('',(#253,#254,#255,#256));
#76=EDGE_LOOP('',(#257,#258,#259,#260));
#77=EDGE_LOOP('',(#261,#262,#263,#264));
#78=EDGE_LOOP('',(#265,#266,#267,#268,#269,#270,#271,#272));
#79=EDGE_LOOP('',(#273,#274,#275,#276));
#80=EDGE_LOOP('',(#277,#278,#279,#280,#281,#282));
#81=EDGE_LOOP('',(#283));
#82=EDGE_LOOP('',(#284));
#83=LINE('',#433,#113);
#84=LINE('',#435,#114);
#85=LINE('',#437,#115);
#86=LINE('',#438,#116);
#87=LINE('',#441,#117);
#88=LINE('',#443,#118);
#89=LINE('',#445,#119);
#90=LINE('',#446,#120);
#91=LINE('',#451,#121);
#92=LINE('',#453,#122);
#93=LINE('',#455,#123);
#94=LINE('',#457,#124);
#95=LINE('',#459,#125);
#96=LINE('',#460,#126);
#97=LINE('',#463,#127);
#98=LINE('',#465,#128);
#99=LINE('',#466,#129);
#100=LINE('',#469,#130);
#101=LINE('',#471,#131);
#102=LINE('',#472,#132);
#103=LINE('',#495,#133);
#104=LINE('',#496,#134);
#105=LINE('',#499,#135);
#106=LINE('',#500,#136);
#107=LINE('',#502,#137);
#108=LINE('',#505,#138);
#109=LINE('',#506,#139);
#110=LINE('',#509,#140);
#111=LINE('',#510,#141);
#112=LINE('',#512,#142);
#113=VECTOR('',#349,8.48528137423857);
#114=VECTOR('',#350,43.);
#115=VECTOR('',#351,8.48528137423857);
#116=VECTOR('',#352,43.);
#117=VECTOR('',#355,13.);
#118=VECTOR('',#356,20.);
#119=VECTOR('',#357,19.);
#120=VECTOR('',#358,14.);
#121=VECTOR('',#363,38.);
#122=VECTOR('',#364,43.);
#123=VECTOR('',#365,13.);
#124=VECTOR('',#366,3.);
#125=VECTOR('',#367,12.);
#126=VECTOR('',#368,3.);
#127=VECTOR('',#371,8.48528137423857);
#128=VECTOR('',#372,8.48528137423857);
#129=VECTOR('',#373,43.);
#130=VECTOR('',#376,14.);
#131=VECTOR('',#377,19.);
#132=VECTOR('',#378,20.);
#133=VECTOR('',#407,20.);
#134=VECTOR('',#408,3.);
#135=VECTOR('',#411,3.);
#136=VECTOR('',#412,20.);
#137=VECTOR('',#415,12.);
#138=VECTOR('',#418,43.);
#139=VECTOR('',#419,14.);
#140=VECTOR('',#422,43.);
#141=VECTOR('',#423,50.);
#142=VECTOR('',#426,14.);
#143=VERTEX_POINT('',#431);
#144=VERTEX_POINT('',#432);
#145=VERTEX_POINT('',#434);
#146=VERTEX_POINT('',#436);
#147=VERTEX_POINT('',#440);
#148=VERTEX_POINT('',#442);
#149=VERTEX_POINT('',#444);
#150=VERTEX_POINT('',#447);
#151=VERTEX_POINT('',#450);
#152=VERTEX_POINT('',#452);
#153=VERTEX_POINT('',#454);
#154=VERTEX_POINT('',#456);
#155=VERTEX_POINT('',#458);
#156=VERTEX_POINT('',#462);
#157=VERTEX_POINT('',#464);
#158=VERTEX_POINT('',#468);
#159=VERTEX_POINT('',#470);
#160=VERTEX_POINT('',#473);
#161=VERTEX_POINT('',#476);
#162=VERTEX_POINT('',#478);
#163=VERTEX_POINT('',#482);
#164=VERTEX_POINT('',#485);
#165=VERTEX_POINT('',#487);
#166=VERTEX_POINT('',#491);
#167=VERTEX_POINT('',#494);
#168=VERTEX_POINT('',#498);
#169=VERTEX_POINT('',#504);
#170=VERTEX_POINT('',#508);
#171=EDGE_CURVE('',#143,#144,#83,.T.);
#172=EDGE_CURVE('',#144,#145,#84,.T.);
#173=EDGE_CURVE('',#145,#146,#85,.T.);
#174=EDGE_CURVE('',#146,#143,#86,.T.);
#175=EDGE_CURVE('',#143,#147,#87,.T.);
#176=EDGE_CURVE('',#147,#148,#88,.T.);
#177=EDGE_CURVE('',#148,#149,#89,.T.);
#178=EDGE_CURVE('',#149,#144,#90,.T.);
#179=EDGE_CURVE('',#150,#150,#29,.T.);
#180=EDGE_CURVE('',#146,#151,#91,.T.);
#181=EDGE_CURVE('',#152,#151,#92,.T.);
#182=EDGE_CURVE('',#153,#152,#93,.T.);
#183=EDGE_CURVE('',#153,#154,#94,.T.);
#184=EDGE_CURVE('',#154,#155,#95,.T.);
#185=EDGE_CURVE('',#155,#147,#96,.T.);
#186=EDGE_CURVE('',#156,#152,#97,.T.);
#187=EDGE_CURVE('',#151,#157,#98,.T.);
#188=EDGE_CURVE('',#157,#156,#99,.T.);
#189=EDGE_CURVE('',#156,#158,#100,.T.);
#190=EDGE_CURVE('',#158,#159,#101,.T.);
#191=EDGE_CURVE('',#159,#153,#102,.T.);
#192=EDGE_CURVE('',#160,#160,#30,.T.);
#193=EDGE_CURVE('',#161,#161,#31,.T.);
#194=EDGE_CURVE('',#162,#162,#32,.T.);
#195=EDGE_CURVE('',#163,#163,#33,.T.);
#196=EDGE_CURVE('',#164,#164,#34,.T.);
#197=EDGE_CURVE('',#165,#165,#35,.T.);
#198=EDGE_CURVE('',#166,#166,#36,.T.);
#199=EDGE_CURVE('',#155,#167,#103,.T.);
#200=EDGE_CURVE('',#148,#167,#104,.T.);
#201=EDGE_CURVE('',#168,#159,#105,.T.);
#202=EDGE_CURVE('',#168,#154,#106,.T.);
#203=EDGE_CURVE('',#167,#168,#107,.T.);
#204=EDGE_CURVE('',#169,#149,#108,.T.);
#205=EDGE_CURVE('',#169,#145,#109,.T.);
#206=EDGE_CURVE('',#170,#158,#110,.T.);
#207=EDGE_CURVE('',#170,#169,#111,.T.);
#208=EDGE_CURVE('',#157,#170,#112,.T.);
#209=ORIENTED_EDGE('',*,*,#171,.T.);
#210=ORIENTED_EDGE('',*,*,#172,.T.);
#211=ORIENTED_EDGE('',*,*,#173,.T.);
#212=ORIENTED_EDGE('',*,*,#174,.T.);
#213=ORIENTED_EDGE('',*,*,#171,.F.);
#214=ORIENTED_EDGE('',*,*,#175,.T.);
#215=ORIENTED_EDGE('',*,*,#176,.T.);
#216=ORIENTED_EDGE('',*,*,#177,.T.);
#217=ORIENTED_EDGE('',*,*,#178,.T.);
#218=ORIENTED_EDGE('',*,*,#179,.T.);
#219=ORIENTED_EDGE('',*,*,#174,.F.);
#220=ORIENTED_EDGE('',*,*,#180,.T.);
#221=ORIENTED_EDGE('',*,*,#181,.F.);
#222=ORIENTED_EDGE('',*,*,#182,.F.);
#223=ORIENTED_EDGE('',*,*,#183,.T.);
#224=ORIENTED_EDGE('',*,*,#184,.T.);
#225=ORIENTED_EDGE('',*,*,#185,.T.);
#226=ORIENTED_EDGE('',*,*,#175,.F.);
#227=ORIENTED_EDGE('',*,*,#186,.T.);
#228=ORIENTED_EDGE('',*,*,#181,.T.);
#229=ORIENTED_EDGE('',*,*,#187,.T.);
#230=ORIENTED_EDGE('',*,*,#188,.T.);
#231=ORIENTED_EDGE('',*,*,#186,.F.);
#232=ORIENTED_EDGE('',*,*,#189,.T.);
#233=ORIENTED_EDGE('',*,*,#190,.T.);
#234=ORIENTED_EDGE('',*,*,#191,.T.);
#235=ORIENTED_EDGE('',*,*,#182,.T.);
#236=ORIENTED_EDGE('',*,*,#192,.T.);
#237=ORIENTED_EDGE('',*,*,#193,.T.);
#238=ORIENTED_EDGE('',*,*,#194,.F.);
#239=ORIENTED_EDGE('',*,*,#192,.F.);
#240=ORIENTED_EDGE('',*,*,#193,.F.);
#241=ORIENTED_EDGE('',*,*,#195,.F.);
#242=ORIENTED_EDGE('',*,*,#194,.T.);
#243=ORIENTED_EDGE('',*,*,#196,.T.);
#244=ORIENTED_EDGE('',*,*,#197,.F.);
#245=ORIENTED_EDGE('',*,*,#179,.F.);
#246=ORIENTED_EDGE('',*,*,#196,.F.);
#247=ORIENTED_EDGE('',*,*,#198,.F.);
#248=ORIENTED_EDGE('',*,*,#197,.T.);
#249=ORIENTED_EDGE('',*,*,#176,.F.);
#250=ORIENTED_EDGE('',*,*,#185,.F.);
#251=ORIENTED_EDGE('',*,*,#199,.T.);
#252=ORIENTED_EDGE('',*,*,#200,.F.);
#253=ORIENTED_EDGE('',*,*,#191,.F.);
#254=ORIENTED_EDGE('',*,*,#201,.F.);
#255=ORIENTED_EDGE('',*,*,#202,.T.);
#256=ORIENTED_EDGE('',*,*,#183,.F.);
#257=ORIENTED_EDGE('',*,*,#202,.F.);
#258=ORIENTED_EDGE('',*,*,#203,.F.);
#259=ORIENTED_EDGE('',*,*,#199,.F.);
#260=ORIENTED_EDGE('',*,*,#184,.F.);
#261=ORIENTED_EDGE('',*,*,#172,.F.);
#262=ORIENTED_EDGE('',*,*,#178,.F.);
#263=ORIENTED_EDGE('',*,*,#204,.F.);
#264=ORIENTED_EDGE('',*,*,#205,.T.);
#265=ORIENTED_EDGE('',*,*,#201,.T.);
#266=ORIENTED_EDGE('',*,*,#190,.F.);
#267=ORIENTED_EDGE('',*,*,#206,.F.);
#268=ORIENTED_EDGE('',*,*,#207,.T.);
#269=ORIENTED_EDGE('',*,*,#204,.T.);
#270=ORIENTED_EDGE('',*,*,#177,.F.);
#271=ORIENTED_EDGE('',*,*,#200,.T.);
#272=ORIENTED_EDGE('',*,*,#203,.T.);
#273=ORIENTED_EDGE('',*,*,#188,.F.);
#274=ORIENTED_EDGE('',*,*,#208,.T.);
#275=ORIENTED_EDGE('',*,*,#206,.T.);
#276=ORIENTED_EDGE('',*,*,#189,.F.);
#277=ORIENTED_EDGE('',*,*,#173,.F.);
#278=ORIENTED_EDGE('',*,*,#205,.F.);
#279=ORIENTED_EDGE('',*,*,#207,.F.);
#280=ORIENTED_EDGE('',*,*,#208,.F.);
#281=ORIENTED_EDGE('',*,*,#187,.F.);
#282=ORIENTED_EDGE('',*,*,#180,.F.);
#283=ORIENTED_EDGE('',*,*,#195,.T.);
#284=ORIENTED_EDGE('',*,*,#198,.T.);
#285=PLANE('',#319);
#286=PLANE('',#320);
#287=PLANE('',#322);
#288=PLANE('',#323);
#289=PLANE('',#324);
#290=PLANE('',#326);
#291=PLANE('',#332);
#292=PLANE('',#338);
#293=PLANE('',#339);
#294=PLANE('',#340);
#295=PLANE('',#341);
#296=PLANE('',#342);
#297=PLANE('',#343);
#298=PLANE('',#344);
#299=ADVANCED_FACE('',(#37),#285,.T.);
#300=ADVANCED_FACE('',(#38,#19),#286,.T.);
#301=ADVANCED_FACE('',(#39),#287,.T.);
#302=ADVANCED_FACE('',(#40),#288,.T.);
#303=ADVANCED_FACE('',(#41,#20),#289,.T.);
#304=ADVANCED_FACE('',(#42,#21),#290,.T.);
#305=ADVANCED_FACE('',(#43,#22),#15,.F.);
#306=ADVANCED_FACE('',(#44,#23),#16,.F.);
#307=ADVANCED_FACE('',(#45,#24),#291,.T.);
#308=ADVANCED_FACE('',(#46,#25),#17,.F.);
#309=ADVANCED_FACE('',(#47,#26),#18,.F.);
#310=ADVANCED_FACE('',(#48),#292,.F.);
#311=ADVANCED_FACE('',(#49),#293,.F.);
#312=ADVANCED_FACE('',(#50),#294,.F.);
#313=ADVANCED_FACE('',(#51),#295,.T.);
#314=ADVANCED_FACE('',(#52),#296,.T.);
#315=ADVANCED_FACE('',(#53),#297,.T.);
#316=ADVANCED_FACE('',(#54,#27,#28),#298,.F.);
#317=CLOSED_SHELL('',(#299,#300,#301,#302,#303,#304,#305,#306,#307,#308,
#309,#310,#311,#312,#313,#314,#315,#316));
#318=AXIS2_PLACEMENT_3D('placement',#429,#345,#346);
#319=AXIS2_PLACEMENT_3D('',#430,#347,#348);
#320=AXIS2_PLACEMENT_3D('',#439,#353,#354);
#321=AXIS2_PLACEMENT_3D('',#448,#359,#360);
#322=AXIS2_PLACEMENT_3D('',#449,#361,#362);
#323=AXIS2_PLACEMENT_3D('',#461,#369,#370);
#324=AXIS2_PLACEMENT_3D('',#467,#374,#375);
#325=AXIS2_PLACEMENT_3D('',#474,#379,#380);
#326=AXIS2_PLACEMENT_3D('',#475,#381,#382);
#327=AXIS2_PLACEMENT_3D('',#477,#383,#384);
#328=AXIS2_PLACEMENT_3D('',#479,#385,#386);
#329=AXIS2_PLACEMENT_3D('',#480,#387,#388);
#330=AXIS2_PLACEMENT_3D('',#481,#389,#390);
#331=AXIS2_PLACEMENT_3D('',#483,#391,#392);
#332=AXIS2_PLACEMENT_3D('',#484,#393,#394);
#333=AXIS2_PLACEMENT_3D('',#486,#395,#396);
#334=AXIS2_PLACEMENT_3D('',#488,#397,#398);
#335=AXIS2_PLACEMENT_3D('',#489,#399,#400);
#336=AXIS2_PLACEMENT_3D('',#490,#401,#402);
#337=AXIS2_PLACEMENT_3D('',#492,#403,#404);
#338=AXIS2_PLACEMENT_3D('',#493,#405,#406);
#339=AXIS2_PLACEMENT_3D('',#497,#409,#410);
#340=AXIS2_PLACEMENT_3D('',#501,#413,#414);
#341=AXIS2_PLACEMENT_3D('',#503,#416,#417);
#342=AXIS2_PLACEMENT_3D('',#507,#420,#421);
#343=AXIS2_PLACEMENT_3D('',#511,#424,#425);
#344=AXIS2_PLACEMENT_3D('',#513,#427,#428);
#345=DIRECTION('axis',(0.,0.,1.));
#346=DIRECTION('refdir',(1.,0.,0.));
#347=DIRECTION('center_axis',(-0.707106781186548,0.,-0.707106781186547));
#348=DIRECTION('ref_axis',(-0.707106781186547,0.,0.707106781186548));
#349=DIRECTION('',(0.707106781186547,0.,-0.707106781186548));
#350=DIRECTION('',(0.,-1.,0.));
#351=DIRECTION('',(-0.707106781186547,0.,0.707106781186548));
#352=DIRECTION('',(0.,1.,0.));
#353=DIRECTION('center_axis',(0.,1.,0.));
#354=DIRECTION('ref_axis',(0.,0.,1.));
#355=DIRECTION('',(2.88657986402541E-16,0.,1.));
#356=DIRECTION('',(1.,0.,0.));
#357=DIRECTION('',(0.,0.,-1.));
#358=DIRECTION('',(-1.,0.,2.22044604925031E-16));
#359=DIRECTION('center_axis',(0.,-1.,0.));
#360=DIRECTION('ref_axis',(1.,0.,0.));
#361=DIRECTION('center_axis',(-1.,0.,2.88657986402541E-16));
#362=DIRECTION('ref_axis',(3.5527136788005E-16,0.,1.));
#363=DIRECTION('',(2.88657986402541E-16,0.,1.));
#364=DIRECTION('',(0.,-1.,0.));
#365=DIRECTION('',(2.88657986402541E-16,0.,1.));
#366=DIRECTION('',(0.,-1.,0.));
#367=DIRECTION('',(-2.88657986402541E-16,0.,-1.));
#368=DIRECTION('',(0.,1.,0.));
#369=DIRECTION('center_axis',(-0.707106781186547,0.,0.707106781186548));
#370=DIRECTION('ref_axis',(0.707106781186548,0.,0.707106781186547));
#371=DIRECTION('',(-0.707106781186548,0.,-0.707106781186547));
#372=DIRECTION('',(0.707106781186548,0.,0.707106781186547));
#373=DIRECTION('',(0.,1.,0.));
#374=DIRECTION('center_axis',(0.,1.,0.));
#375=DIRECTION('ref_axis',(0.,0.,1.));
#376=DIRECTION('',(1.,0.,-2.22044604925032E-16));
#377=DIRECTION('',(0.,0.,-1.));
#378=DIRECTION('',(-1.,0.,0.));
#379=DIRECTION('center_axis',(0.,-1.,0.));
#380=DIRECTION('ref_axis',(1.,0.,0.));
#381=DIRECTION('center_axis',(0.,1.,0.));
#382=DIRECTION('ref_axis',(1.,0.,0.));
#383=DIRECTION('center_axis',(0.,1.,0.));
#384=DIRECTION('ref_axis',(1.,0.,0.));
#385=DIRECTION('center_axis',(0.,1.,0.));
#386=DIRECTION('ref_axis',(1.,0.,0.));
#387=DIRECTION('center_axis',(0.,1.,0.));
#388=DIRECTION('ref_axis',(1.,0.,0.));
#389=DIRECTION('center_axis',(0.,1.,0.));
#390=DIRECTION('ref_axis',(1.,0.,0.));
#391=DIRECTION('center_axis',(0.,1.,0.));
#392=DIRECTION('ref_axis',(1.,0.,0.));
#393=DIRECTION('center_axis',(0.,1.,0.));
#394=DIRECTION('ref_axis',(1.,0.,0.));
#395=DIRECTION('center_axis',(0.,1.,0.));
#396=DIRECTION('ref_axis',(1.,0.,0.));
#397=DIRECTION('center_axis',(0.,1.,0.));
#398=DIRECTION('ref_axis',(1.,0.,0.));
#399=DIRECTION('center_axis',(0.,1.,0.));
#400=DIRECTION('ref_axis',(1.,0.,0.));
#401=DIRECTION('center_axis',(0.,1.,0.));
#402=DIRECTION('ref_axis',(1.,0.,0.));
#403=DIRECTION('center_axis',(0.,1.,0.));
#404=DIRECTION('ref_axis',(1.,0.,0.));
#405=DIRECTION('center_axis',(0.,0.,-1.));
#406=DIRECTION('ref_axis',(1.,0.,0.));
#407=DIRECTION('',(1.,0.,0.));
#408=DIRECTION('',(0.,-1.,0.));
#409=DIRECTION('center_axis',(0.,0.,1.));
#410=DIRECTION('ref_axis',(-1.,0.,0.));
#411=DIRECTION('',(0.,1.,0.));
#412=DIRECTION('',(-1.,0.,0.));
#413=DIRECTION('center_axis',(0.,-1.,0.));
#414=DIRECTION('ref_axis',(0.,0.,-1.));
#415=DIRECTION('',(0.,0.,1.));
#416=DIRECTION('center_axis',(-2.22044604925031E-16,0.,-1.));
#417=DIRECTION('ref_axis',(-1.,0.,3.5527136788005E-16));
#418=DIRECTION('',(0.,1.,0.));
#419=DIRECTION('',(-1.,0.,2.22044604925031E-16));
#420=DIRECTION('center_axis',(1.,0.,0.));
#421=DIRECTION('ref_axis',(0.,0.,-1.));
#422=DIRECTION('',(0.,1.,0.));
#423=DIRECTION('',(0.,0.,-1.));
#424=DIRECTION('center_axis',(2.22044604925032E-16,0.,1.));
#425=DIRECTION('ref_axis',(1.,0.,-3.5527136788005E-16));
#426=DIRECTION('',(1.,0.,-2.22044604925032E-16));
#427=DIRECTION('center_axis',(0.,1.,0.));
#428=DIRECTION('ref_axis',(0.,0.,1.));
#429=CARTESIAN_POINT('',(0.,0.,0.));
#430=CARTESIAN_POINT('Origin',(-7.,0.,-22.));
#431=CARTESIAN_POINT('',(-10.,43.,-19.));
#432=CARTESIAN_POINT('',(-4.,43.,-25.));
#433=CARTESIAN_POINT('',(-10.75,43.,-18.25));
#434=CARTESIAN_POINT('',(-4.,0.,-25.));
#435=CARTESIAN_POINT('',(-4.,0.,-25.));
#436=CARTESIAN_POINT('',(-10.,0.,-19.));
#437=CARTESIAN_POINT('',(-10.75,0.,-18.25));
#438=CARTESIAN_POINT('',(-10.,0.,-19.));
#439=CARTESIAN_POINT('Origin',(0.,43.,0.));
#440=CARTESIAN_POINT('',(-10.,43.,-6.));
#441=CARTESIAN_POINT('',(-10.,43.,-25.));
#442=CARTESIAN_POINT('',(10.,43.,-6.));
#443=CARTESIAN_POINT('',(-5.,43.,-6.));
#444=CARTESIAN_POINT('',(10.,43.,-25.));
#445=CARTESIAN_POINT('',(10.,43.,25.));
#446=CARTESIAN_POINT('',(10.,43.,-25.));
#447=CARTESIAN_POINT('',(5.5,43.,-15.));
#448=CARTESIAN_POINT('Origin',(0.,43.,-15.));
#449=CARTESIAN_POINT('Origin',(-10.,0.,-25.));
#450=CARTESIAN_POINT('',(-9.99999999999999,0.,19.));
#451=CARTESIAN_POINT('',(-10.,0.,-25.));
#452=CARTESIAN_POINT('',(-9.99999999999999,43.,19.));
#453=CARTESIAN_POINT('',(-9.99999999999999,0.,19.));
#454=CARTESIAN_POINT('',(-9.99999999999999,43.,6.));
#455=CARTESIAN_POINT('',(-10.,43.,-25.));
#456=CARTESIAN_POINT('',(-9.99999999999999,40.,6.));
#457=CARTESIAN_POINT('',(-9.99999999999999,21.5,6.));
#458=CARTESIAN_POINT('',(-10.,40.,-6.));
#459=CARTESIAN_POINT('',(-10.,40.,-12.5));
#460=CARTESIAN_POINT('',(-10.,21.5,-6.));
#461=CARTESIAN_POINT('Origin',(-6.99999999999999,0.,22.));
#462=CARTESIAN_POINT('',(-3.99999999999999,43.,25.));
#463=CARTESIAN_POINT('',(-10.75,43.,18.25));
#464=CARTESIAN_POINT('',(-3.99999999999999,0.,25.));
#465=CARTESIAN_POINT('',(-10.75,0.,18.25));
#466=CARTESIAN_POINT('',(-3.99999999999999,0.,25.));
#467=CARTESIAN_POINT('Origin',(0.,43.,0.));
#468=CARTESIAN_POINT('',(10.,43.,25.));
#469=CARTESIAN_POINT('',(-9.99999999999999,43.,25.));
#470=CARTESIAN_POINT('',(10.,43.,6.));
#471=CARTESIAN_POINT('',(10.,43.,25.));
#472=CARTESIAN_POINT('',(5.,43.,6.));
#473=CARTESIAN_POINT('',(5.5,43.,15.));
#474=CARTESIAN_POINT('Origin',(3.45257521440436E-31,43.,15.));
#475=CARTESIAN_POINT('Origin',(3.45257521440436E-31,36.5,15.));
#476=CARTESIAN_POINT('',(5.5,36.5,15.));
#477=CARTESIAN_POINT('Origin',(3.45257521440436E-31,36.5,15.));
#478=CARTESIAN_POINT('',(-2.75,36.5,15.));
#479=CARTESIAN_POINT('Origin',(3.45257521440436E-31,36.5,15.));
#480=CARTESIAN_POINT('Origin',(3.45257521440436E-31,39.75,15.));
#481=CARTESIAN_POINT('Origin',(3.45257521440436E-31,-25.9129886160802,15.));
#482=CARTESIAN_POINT('',(-2.75,0.,15.));
#483=CARTESIAN_POINT('Origin',(3.45257521440436E-31,0.,15.));
#484=CARTESIAN_POINT('Origin',(0.,36.5,-15.));
#485=CARTESIAN_POINT('',(5.5,36.5,-15.));
#486=CARTESIAN_POINT('Origin',(0.,36.5,-15.));
#487=CARTESIAN_POINT('',(-2.75,36.5,-15.));
#488=CARTESIAN_POINT('Origin',(0.,36.5,-15.));
#489=CARTESIAN_POINT('Origin',(0.,39.75,-15.));
#490=CARTESIAN_POINT('Origin',(0.,-25.9129886160802,-15.));
#491=CARTESIAN_POINT('',(-2.75,0.,-15.));
#492=CARTESIAN_POINT('Origin',(0.,0.,-15.));
#493=CARTESIAN_POINT('Origin',(-10.,43.,-6.));
#494=CARTESIAN_POINT('',(10.,40.,-6.));
#495=CARTESIAN_POINT('',(10.,40.,-6.));
#496=CARTESIAN_POINT('',(10.,21.5,-6.));
#497=CARTESIAN_POINT('Origin',(10.,43.,6.));
#498=CARTESIAN_POINT('',(10.,40.,6.));
#499=CARTESIAN_POINT('',(10.,21.5,6.));
#500=CARTESIAN_POINT('',(-9.99999999999999,40.,6.));
#501=CARTESIAN_POINT('Origin',(1.11022302462516E-15,40.,0.));
#502=CARTESIAN_POINT('',(10.,40.,12.5));
#503=CARTESIAN_POINT('Origin',(10.,0.,-25.));
#504=CARTESIAN_POINT('',(10.,0.,-25.));
#505=CARTESIAN_POINT('',(10.,0.,-25.));
#506=CARTESIAN_POINT('',(10.,0.,-25.));
#507=CARTESIAN_POINT('Origin',(10.,0.,25.));
#508=CARTESIAN_POINT('',(10.,0.,25.));
#509=CARTESIAN_POINT('',(10.,0.,25.));
#510=CARTESIAN_POINT('',(10.,0.,25.));
#511=CARTESIAN_POINT('Origin',(-9.99999999999999,0.,25.));
#512=CARTESIAN_POINT('',(-9.99999999999999,0.,25.));
#513=CARTESIAN_POINT('Origin',(0.,0.,-1.26882631385732E-15));
#514=UNCERTAINTY_MEASURE_WITH_UNIT(LENGTH_MEASURE(0.01),#518,
'DISTANCE_ACCURACY_VALUE',
'Maximum model space distance between geometric entities at asserted c
onnectivities');
#515=UNCERTAINTY_MEASURE_WITH_UNIT(LENGTH_MEASURE(1.E-6),#518,
'DISTANCE_ACCURACY_VALUE',
'Maximum model space distance between geometric entities at asserted c
onnectivities');
#516=(
GEOMETRIC_REPRESENTATION_CONTEXT(3)
GLOBAL_UNCERTAINTY_ASSIGNED_CONTEXT((#514))
GLOBAL_UNIT_ASSIGNED_CONTEXT((#518,#521,#519))
REPRESENTATION_CONTEXT('','3D')
);
#517=(
GEOMETRIC_REPRESENTATION_CONTEXT(3)
GLOBAL_UNCERTAINTY_ASSIGNED_CONTEXT((#515))
GLOBAL_UNIT_ASSIGNED_CONTEXT((#518,#521,#519))
REPRESENTATION_CONTEXT('','3D')
);
#518=(
LENGTH_UNIT()
NAMED_UNIT(*)
SI_UNIT(.MILLI.,.METRE.)
);
#519=(
NAMED_UNIT(*)
SI_UNIT($,.STERADIAN.)
SOLID_ANGLE_UNIT()
);
#520=DIMENSIONAL_EXPONENTS(0.,0.,0.,0.,0.,0.,0.);
#521=(
CONVERSION_BASED_UNIT('degree',#523)
NAMED_UNIT(#520)
PLANE_ANGLE_UNIT()
);
#522=(
NAMED_UNIT(*)
PLANE_ANGLE_UNIT()
SI_UNIT($,.RADIAN.)
);
#523=PLANE_ANGLE_MEASURE_WITH_UNIT(PLANE_ANGLE_MEASURE(0.01745329252),#522);
#524=SHAPE_DEFINITION_REPRESENTATION(#525,#526);
#525=PRODUCT_DEFINITION_SHAPE('',$,#528);
#526=SHAPE_REPRESENTATION('',(#318),#516);
#527=PRODUCT_DEFINITION_CONTEXT('part definition',#532,'design');
#528=PRODUCT_DEFINITION('VeeBlock','VeeBlock',#529,#527);
#529=PRODUCT_DEFINITION_FORMATION('',$,#534);
#530=PRODUCT_RELATED_PRODUCT_CATEGORY('VeeBlock','VeeBlock',(#534));
#531=APPLICATION_PROTOCOL_DEFINITION('international standard',
'automotive_design',2009,#532);
#532=APPLICATION_CONTEXT(
'Core Data for Automotive Mechanical Design Process');
#533=PRODUCT_CONTEXT('part definition',#532,'mechanical');
#534=PRODUCT('VeeBlock','VeeBlock',$,(#533));
#535=PRESENTATION_STYLE_ASSIGNMENT((#536));
#536=SURFACE_STYLE_USAGE(.BOTH.,#537);
#537=SURFACE_SIDE_STYLE($,(#538));
#538=SURFACE_STYLE_FILL_AREA(#539);
#539=FILL_AREA_STYLE($,(#540));
#540=FILL_AREA_STYLE_COLOUR($,#541);
#541=COLOUR_RGB('',0.956862745098039,0.956862745098039,0.956862745098039);
ENDSEC;
END-ISO-10303-21;
